  0
SECTION
  2
HEADER
  9
$ACADVER
  1
AC1009
  9
$DWGCODEPAGE
  3
ansi_932
  9
$INSBASE
 10
0.0
 20
0.0
 30
0.0
  9
$EXTMIN
 10
389110.0879359102
 20
198065.3466728768
 30
0.0
  9
$EXTMAX
 10
389371.8913347851
 20
199227.1500717519
 30
0.0
  9
$LIMMIN
 10
0.0
 20
0.0
  9
$LIMMAX
 10
12.0
 20
9.0
  9
$ORTHOMODE
 70
     0
  9
$REGENMODE
 70
     1
  9
$FILLMODE
 70
     1
  9
$QTEXTMODE
 70
     0
  9
$MIRRTEXT
 70
     1
  9
$DRAGMODE
 70
     2
  9
$LTSCALE
 40
1.0
  9
$OSMODE
 70
    37
  9
$ATTMODE
 70
     1
  9
$TEXTSIZE
 40
0.2
  9
$TRACEWID
 40
0.05
  9
$TEXTSTYLE
  7
STANDARD
  9
$CLAYER
  8
0
  9
$CELTYPE
  6
BYLAYER
  9
$CECOLOR
 62
   256
  9
$DIMSCALE
 40
1.0
  9
$DIMASZ
 40
0.18
  9
$DIMEXO
 40
0.0625
  9
$DIMDLI
 40
0.38
  9
$DIMRND
 40
0.0
  9
$DIMDLE
 40
0.0
  9
$DIMEXE
 40
0.18
  9
$DIMTP
 40
0.0
  9
$DIMTM
 40
0.0
  9
$DIMTXT
 40
0.18
  9
$DIMCEN
 40
0.09
  9
$DIMTSZ
 40
0.0
  9
$DIMTOL
 70
     0
  9
$DIMLIM
 70
     0
  9
$DIMTIH
 70
     1
  9
$DIMTOH
 70
     1
  9
$DIMSE1
 70
     0
  9
$DIMSE2
 70
     0
  9
$DIMTAD
 70
     0
  9
$DIMZIN
 70
     0
  9
$DIMBLK
  1

  9
$DIMASO
 70
     1
  9
$DIMSHO
 70
     1
  9
$DIMPOST
  1

  9
$DIMAPOST
  1

  9
$DIMALT
 70
     0
  9
$DIMALTD
 70
     2
  9
$DIMALTF
 40
25.4
  9
$DIMLFAC
 40
1.0
  9
$DIMTOFL
 70
     0
  9
$DIMTVP
 40
0.0
  9
$DIMTIX
 70
     0
  9
$DIMSOXD
 70
     0
  9
$DIMSAH
 70
     0
  9
$DIMBLK1
  1

  9
$DIMBLK2
  1

  9
$DIMSTYLE
  2
STANDARD
  9
$DIMCLRD
 70
     0
  9
$DIMCLRE
 70
     0
  9
$DIMCLRT
 70
     0
  9
$DIMTFAC
 40
1.0
  9
$DIMGAP
 40
0.09
  9
$LUNITS
 70
     2
  9
$LUPREC
 70
     3
  9
$SKETCHINC
 40
0.1
  9
$FILLETRAD
 40
0.5
  9
$AUNITS
 70
     0
  9
$AUPREC
 70
     0
  9
$MENU
  1
.
  9
$ELEVATION
 40
0.0
  9
$PELEVATION
 40
0.0
  9
$THICKNESS
 40
0.0
  9
$LIMCHECK
 70
     0
  9
$CHAMFERA
 40
0.0
  9
$CHAMFERB
 40
0.0
  9
$SKPOLY
 70
     0
  9
$TDCREATE
 40
2459177.80032
  9
$TDUPDATE
 40
2459177.80034243
  9
$TDINDWG
 40
0.0000000116
  9
$TDUSRTIMER
 40
0.0000000116
  9
$USRTIMER
 70
     1
  9
$ANGBASE
 50
0.0
  9
$ANGDIR
 70
     0
  9
$PDMODE
 70
     0
  9
$PDSIZE
 40
0.0
  9
$PLINEWID
 40
0.0
  9
$COORDS
 70
     1
  9
$SPLFRAME
 70
     0
  9
$SPLINETYPE
 70
     6
  9
$SPLINESEGS
 70
     8
  9
$ATTDIA
 70
     0
  9
$ATTREQ
 70
     1
  9
$HANDLING
 70
     1
  9
$HANDSEED
  5
1FE
  9
$SURFTAB1
 70
     6
  9
$SURFTAB2
 70
     6
  9
$SURFTYPE
 70
     6
  9
$SURFU
 70
     6
  9
$SURFV
 70
     6
  9
$UCSNAME
  2

  9
$UCSORG
 10
0.0
 20
0.0
 30
0.0
  9
$UCSXDIR
 10
1.0
 20
0.0
 30
0.0
  9
$UCSYDIR
 10
0.0
 20
1.0
 30
0.0
  9
$PUCSNAME
  2

  9
$PUCSORG
 10
0.0
 20
0.0
 30
0.0
  9
$PUCSXDIR
 10
1.0
 20
0.0
 30
0.0
  9
$PUCSYDIR
 10
0.0
 20
1.0
 30
0.0
  9
$USERI1
 70
     0
  9
$USERI2
 70
     0
  9
$USERI3
 70
     0
  9
$USERI4
 70
     0
  9
$USERI5
 70
     0
  9
$USERR1
 40
0.0
  9
$USERR2
 40
0.0
  9
$USERR3
 40
0.0
  9
$USERR4
 40
0.0
  9
$USERR5
 40
0.0
  9
$WORLDVIEW
 70
     1
  9
$SHADEDGE
 70
     3
  9
$SHADEDIF
 70
    70
  9
$TILEMODE
 70
     1
  9
$MAXACTVP
 70
    64
  9
$PLIMCHECK
 70
     0
  9
$PEXTMIN
 10
1.000000000000000E+20
 20
1.000000000000000E+20
 30
1.000000000000000E+20
  9
$PEXTMAX
 10
-1.000000000000000E+20
 20
-1.000000000000000E+20
 30
-1.000000000000000E+20
  9
$PLIMMIN
 10
0.0
 20
0.0
  9
$PLIMMAX
 10
12.0
 20
9.0
  9
$UNITMODE
 70
     0
  9
$VISRETAIN
 70
     1
  9
$PLINEGEN
 70
     0
  9
$PSLTSCALE
 70
     1
  0
ENDSEC
  0
SECTION
  2
TABLES
  0
TABLE
  2
VPORT
 70
     1
  0
VPORT
  2
*ACTIVE
 70
     0
 10
0.0
 20
0.0
 11
1.0
 21
1.0
 12
389240.9896353476
 22
198646.2483723143
 13
0.0
 23
0.0
 14
0.5
 24
0.5
 15
0.5
 25
0.5
 16
0.0
 26
0.0
 36
1.0
 17
0.0
 27
0.0
 37
0.0
 40
1185.039466852555
 41
0.2253422559518692
 42
50.0
 43
0.0
 44
0.0
 50
0.0
 51
0.0
 71
     0
 72
   100
 73
     1
 74
     3
 75
     0
 76
     0
 77
     0
 78
     0
  0
ENDTAB
  0
TABLE
  2
LTYPE
 70
     1
  0
LTYPE
  2
CONTINUOUS
 70
     0
  3
Solid line
 72
    65
 73
     0
 40
0.0
  0
ENDTAB
  0
TABLE
  2
LAYER
 70
     2
  0
LAYER
  2
0
 70
     0
 62
     7
  6
CONTINUOUS
  0
LAYER
  2
MAKE2D$VISIBLE$LINES
 70
     0
 62
     7
  6
CONTINUOUS
  0
ENDTAB
  0
TABLE
  2
STYLE
 70
     1
  0
STYLE
  2
STANDARD
 70
     0
 40
0.0
 41
1.0
 50
0.0
 71
     0
 42
0.2
  3
txt
  4

  0
ENDTAB
  0
TABLE
  2
VIEW
 70
     0
  0
ENDTAB
  0
TABLE
  2
UCS
 70
     0
  0
ENDTAB
  0
TABLE
  2
APPID
 70
     1
  0
APPID
  2
ACAD
 70
     0
  0
ENDTAB
  0
TABLE
  2
DIMSTYLE
 70
     1
  0
DIMSTYLE
  2
STANDARD
 70
     0
  3

  4

  5

  6

  7

 40
1.0
 41
0.18
 42
0.0625
 43
0.38
 44
0.18
 45
0.0
 46
0.0
 47
0.0
 48
0.0
140
0.18
141
0.09
142
0.0
143
25.4
144
1.0
145
0.0
146
1.0
147
0.09
 71
     0
 72
     0
 73
     1
 74
     1
 75
     0
 76
     0
 77
     0
 78
     0
170
     0
171
     2
172
     0
173
     0
174
     0
175
     0
176
     0
177
     0
178
     0
  0
ENDTAB
  0
ENDSEC
  0
SECTION
  2
BLOCKS
  0
BLOCK
  8
0
  2
$MODEL_SPACE
 70
     0
 10
0.0
 20
0.0
 30
0.0
  3
$MODEL_SPACE
  1

  0
ENDBLK
  5
21
  8
0
  0
BLOCK
 67
     1
  8
0
  2
$PAPER_SPACE
 70
     0
 10
0.0
 20
0.0
 30
0.0
  3
$PAPER_SPACE
  1

  0
ENDBLK
  5
1D
 67
     1
  8
0
  0
ENDSEC
  0
SECTION
  2
ENTITIES
  0
LINE
  5
6F
  8
MAKE2D$VISIBLE$LINES
 10
389271.8913347851
 20
199065.3466728768
 30
0.0
 11
389271.8913347851
 21
198065.3466728768
 31
0.0
  0
LINE
  5
70
  8
MAKE2D$VISIBLE$LINES
 10
389281.8913347851
 20
198815.3466728768
 30
0.0
 11
389281.8913347851
 21
198315.3466728768
 31
0.0
  0
LINE
  5
71
  8
MAKE2D$VISIBLE$LINES
 10
389361.8913347851
 20
198815.3466728768
 30
0.0
 11
389281.8913347851
 21
198815.3466728768
 31
0.0
  0
LINE
  5
72
  8
MAKE2D$VISIBLE$LINES
 10
389361.8913347851
 20
198315.3466728768
 30
0.0
 11
389361.8913347851
 21
198815.3466728768
 31
0.0
  0
LINE
  5
73
  8
MAKE2D$VISIBLE$LINES
 10
389281.8913347851
 20
198315.3466728768
 30
0.0
 11
389361.8913347851
 21
198315.3466728768
 31
0.0
  0
LINE
  5
74
  8
MAKE2D$VISIBLE$LINES
 10
389271.8913347851
 20
199065.3466728768
 30
0.0
 11
389371.8913347851
 21
199065.3466728768
 31
0.0
  0
LINE
  5
75
  8
MAKE2D$VISIBLE$LINES
 10
389371.8913347851
 20
198065.3466728768
 30
0.0
 11
389371.8913347851
 21
199065.3466728768
 31
0.0
  0
LINE
  5
76
  8
MAKE2D$VISIBLE$LINES
 10
389271.8913347851
 20
198065.3466728768
 30
0.0
 11
389371.8913347851
 21
198065.3466728768
 31
0.0
  0
LINE
  5
77
  8
MAKE2D$VISIBLE$LINES
 10
389110.0879359102
 20
199065.3466728768
 30
0.0
 11
389110.0879359102
 21
198065.3466728768
 31
0.0
  0
LINE
  5
78
  8
MAKE2D$VISIBLE$LINES
 10
389210.0879359102
 20
198065.3466728768
 30
0.0
 11
389210.0879359102
 21
199065.3466728768
 31
0.0
  0
LINE
  5
79
  8
MAKE2D$VISIBLE$LINES
 10
389120.0879359102
 20
198815.3466728768
 30
0.0
 11
389120.0879359102
 21
198315.3466728768
 31
0.0
  0
LINE
  5
7A
  8
MAKE2D$VISIBLE$LINES
 10
389200.0879359102
 20
198815.3466728768
 30
0.0
 11
389120.0879359102
 21
198815.3466728768
 31
0.0
  0
LINE
  5
7B
  8
MAKE2D$VISIBLE$LINES
 10
389200.0879359102
 20
198315.3466728768
 30
0.0
 11
389200.0879359102
 21
198815.3466728768
 31
0.0
  0
LINE
  5
7C
  8
MAKE2D$VISIBLE$LINES
 10
389120.0879359102
 20
198315.3466728768
 30
0.0
 11
389200.0879359102
 21
198315.3466728768
 31
0.0
  0
LINE
  5
7D
  8
MAKE2D$VISIBLE$LINES
 10
389110.0879359102
 20
199065.3466728768
 30
0.0
 11
389210.0879359102
 21
199065.3466728768
 31
0.0
  0
LINE
  5
7E
  8
MAKE2D$VISIBLE$LINES
 10
389110.0879359102
 20
198065.3466728768
 30
0.0
 11
389210.0879359102
 21
198065.3466728768
 31
0.0
  0
LINE
  5
7F
  8
MAKE2D$VISIBLE$LINES
 10
389205.5879359102
 20
199224.8500717518
 30
0.0
 11
389205.6630463526
 21
199224.848789201
 31
0.0
  0
LINE
  5
80
  8
MAKE2D$VISIBLE$LINES
 10
389205.6630463526
 20
199224.848789201
 30
0.0
 11
389205.7380692196
 21
199224.844943044
 31
0.0
  0
LINE
  5
81
  8
MAKE2D$VISIBLE$LINES
 10
389205.7380692196
 20
199224.844943044
 30
0.0
 11
389205.8129170378
 21
199224.8385377652
 31
0.0
  0
LINE
  5
82
  8
MAKE2D$VISIBLE$LINES
 10
389205.8129170378
 20
199224.8385377652
 30
0.0
 11
389205.8875025382
 21
199224.829580833
 31
0.0
  0
LINE
  5
83
  8
MAKE2D$VISIBLE$LINES
 10
389205.8875025382
 20
199224.829580833
 30
0.0
 11
389205.9617387572
 21
199224.8180826907
 31
0.0
  0
LINE
  5
84
  8
MAKE2D$VISIBLE$LINES
 10
389205.9617387572
 20
199224.8180826907
 30
0.0
 11
389206.0355391388
 21
199224.8040567446
 31
0.0
  0
LINE
  5
85
  8
MAKE2D$VISIBLE$LINES
 10
389206.0355391388
 20
199224.8040567446
 30
0.0
 11
389206.1088176352
 21
199224.7875193484
 31
0.0
  0
LINE
  5
86
  8
MAKE2D$VISIBLE$LINES
 10
389206.1088176352
 20
199224.7875193484
 30
0.0
 11
389206.1814888067
 21
199224.7684897839
 31
0.0
  0
LINE
  5
87
  8
MAKE2D$VISIBLE$LINES
 10
389206.1814888067
 20
199224.7684897839
 30
0.0
 11
389206.253467922
 21
199224.7469902387
 31
0.0
  0
LINE
  5
88
  8
MAKE2D$VISIBLE$LINES
 10
389206.253467922
 20
199224.7469902387
 30
0.0
 11
389206.3246710569
 21
199224.7230457804
 31
0.0
  0
LINE
  5
89
  8
MAKE2D$VISIBLE$LINES
 10
389206.3246710569
 20
199224.7230457804
 30
0.0
 11
389206.3950151915
 21
199224.6966843271
 31
0.0
  0
LINE
  5
8A
  8
MAKE2D$VISIBLE$LINES
 10
389206.3950151915
 20
199224.6966843271
 30
0.0
 11
389206.4644183078
 21
199224.667936615
 31
0.0
  0
LINE
  5
8B
  8
MAKE2D$VISIBLE$LINES
 10
389206.4644183078
 20
199224.667936615
 30
0.0
 11
389206.5327994848
 21
199224.6368361628
 31
0.0
  0
LINE
  5
8C
  8
MAKE2D$VISIBLE$LINES
 10
389206.5327994848
 20
199224.6368361628
 30
0.0
 11
389206.6000789931
 21
199224.6034192322
 31
0.0
  0
LINE
  5
8D
  8
MAKE2D$VISIBLE$LINES
 10
389206.6000789931
 20
199224.6034192322
 30
0.0
 11
389206.6661783879
 21
199224.5677247858
 31
0.0
  0
LINE
  5
8E
  8
MAKE2D$VISIBLE$LINES
 10
389206.6661783879
 20
199224.5677247858
 30
0.0
 11
389206.7310206001
 21
199224.5297944417
 31
0.0
  0
LINE
  5
8F
  8
MAKE2D$VISIBLE$LINES
 10
389206.7310206001
 20
199224.5297944417
 30
0.0
 11
389206.7945300268
 21
199224.4896724251
 31
0.0
  0
LINE
  5
90
  8
MAKE2D$VISIBLE$LINES
 10
389206.7945300268
 20
199224.4896724251
 30
0.0
 11
389206.8566326187
 21
199224.4474055163
 31
0.0
  0
LINE
  5
91
  8
MAKE2D$VISIBLE$LINES
 10
389206.8566326187
 20
199224.4474055163
 30
0.0
 11
389206.917255967
 21
199224.4030429968
 31
0.0
  0
LINE
  5
92
  8
MAKE2D$VISIBLE$LINES
 10
389206.917255967
 20
199224.4030429968
 30
0.0
 11
389206.9763293876
 21
199224.3566365913
 31
0.0
  0
LINE
  5
93
  8
MAKE2D$VISIBLE$LINES
 10
389206.9763293876
 20
199224.3566365913
 30
0.0
 11
389207.0337840035
 21
199224.3082404074
 31
0.0
  0
LINE
  5
94
  8
MAKE2D$VISIBLE$LINES
 10
389207.0337840035
 20
199224.3082404074
 30
0.0
 11
389207.0895528251
 21
199224.2579108731
 31
0.0
  0
LINE
  5
95
  8
MAKE2D$VISIBLE$LINES
 10
389207.0895528251
 20
199224.2579108731
 30
0.0
 11
389207.1435708287
 21
199224.2057066703
 31
0.0
  0
LINE
  5
96
  8
MAKE2D$VISIBLE$LINES
 10
389207.1435708287
 20
199224.2057066703
 30
0.0
 11
389207.1957750315
 21
199224.1516886668
 31
0.0
  0
LINE
  5
97
  8
MAKE2D$VISIBLE$LINES
 10
389207.1957750315
 20
199224.1516886668
 30
0.0
 11
389207.2461045658
 21
199224.0959198451
 31
0.0
  0
LINE
  5
98
  8
MAKE2D$VISIBLE$LINES
 10
389207.2461045658
 20
199224.0959198451
 30
0.0
 11
389207.2945007496
 21
199224.0384652292
 31
0.0
  0
LINE
  5
99
  8
MAKE2D$VISIBLE$LINES
 10
389207.2945007496
 20
199224.0384652292
 30
0.0
 11
389207.3409071551
 21
199223.9793918087
 31
0.0
  0
LINE
  5
9A
  8
MAKE2D$VISIBLE$LINES
 10
389207.3409071551
 20
199223.9793918087
 30
0.0
 11
389207.3852696746
 21
199223.9187684604
 31
0.0
  0
LINE
  5
9B
  8
MAKE2D$VISIBLE$LINES
 10
389207.3852696746
 20
199223.9187684604
 30
0.0
 11
389207.4275365834
 21
199223.8566658685
 31
0.0
  0
LINE
  5
9C
  8
MAKE2D$VISIBLE$LINES
 10
389207.4275365834
 20
199223.8566658685
 30
0.0
 11
389207.4676586001
 21
199223.7931564418
 31
0.0
  0
LINE
  5
9D
  8
MAKE2D$VISIBLE$LINES
 10
389207.4676586001
 20
199223.7931564418
 30
0.0
 11
389207.5055889441
 21
199223.7283142295
 31
0.0
  0
LINE
  5
9E
  8
MAKE2D$VISIBLE$LINES
 10
389207.5055889441
 20
199223.7283142295
 30
0.0
 11
389207.5412833905
 21
199223.6622148347
 31
0.0
  0
LINE
  5
9F
  8
MAKE2D$VISIBLE$LINES
 10
389207.5412833905
 20
199223.6622148347
 30
0.0
 11
389207.5747003212
 21
199223.5949353264
 31
0.0
  0
LINE
  5
A0
  8
MAKE2D$VISIBLE$LINES
 10
389207.5747003212
 20
199223.5949353264
 30
0.0
 11
389207.6058007734
 21
199223.5265541494
 31
0.0
  0
LINE
  5
A1
  8
MAKE2D$VISIBLE$LINES
 10
389207.6058007734
 20
199223.5265541494
 30
0.0
 11
389207.6345484854
 21
199223.4571510332
 31
0.0
  0
LINE
  5
A2
  8
MAKE2D$VISIBLE$LINES
 10
389207.6345484854
 20
199223.4571510332
 30
0.0
 11
389207.6609099387
 21
199223.3868068985
 31
0.0
  0
LINE
  5
A3
  8
MAKE2D$VISIBLE$LINES
 10
389207.6609099387
 20
199223.3868068985
 30
0.0
 11
389207.684854397
 21
199223.3156037637
 31
0.0
  0
LINE
  5
A4
  8
MAKE2D$VISIBLE$LINES
 10
389207.684854397
 20
199223.3156037637
 30
0.0
 11
389207.7063539422
 21
199223.2436246483
 31
0.0
  0
LINE
  5
A5
  8
MAKE2D$VISIBLE$LINES
 10
389207.7063539422
 20
199223.2436246483
 30
0.0
 11
389207.7253835067
 21
199223.1709534768
 31
0.0
  0
LINE
  5
A6
  8
MAKE2D$VISIBLE$LINES
 10
389207.7253835067
 20
199223.1709534768
 30
0.0
 11
389207.741920903
 21
199223.0976749805
 31
0.0
  0
LINE
  5
A7
  8
MAKE2D$VISIBLE$LINES
 10
389207.741920903
 20
199223.0976749805
 30
0.0
 11
389207.7559468491
 21
199223.0238745988
 31
0.0
  0
LINE
  5
A8
  8
MAKE2D$VISIBLE$LINES
 10
389207.7559468491
 20
199223.0238745988
 30
0.0
 11
389207.7674449914
 21
199222.9496383798
 31
0.0
  0
LINE
  5
A9
  8
MAKE2D$VISIBLE$LINES
 10
389207.7674449914
 20
199222.9496383798
 30
0.0
 11
389207.7764019236
 21
199222.8750528794
 31
0.0
  0
LINE
  5
AA
  8
MAKE2D$VISIBLE$LINES
 10
389207.7764019236
 20
199222.8750528794
 30
0.0
 11
389207.7828072023
 21
199222.8002050612
 31
0.0
  0
LINE
  5
AB
  8
MAKE2D$VISIBLE$LINES
 10
389207.7828072023
 20
199222.8002050612
 30
0.0
 11
389207.7866533593
 21
199222.7251821942
 31
0.0
  0
LINE
  5
AC
  8
MAKE2D$VISIBLE$LINES
 10
389207.7866533593
 20
199222.7251821942
 30
0.0
 11
389207.7879359101
 21
199222.6500717518
 31
0.0
  0
LINE
  5
AD
  8
MAKE2D$VISIBLE$LINES
 10
389207.7879359101
 20
199222.6500717518
 30
0.0
 11
389207.7879359102
 21
199131.6500717518
 31
0.0
  0
LINE
  5
AE
  8
MAKE2D$VISIBLE$LINES
 10
389207.7879359102
 20
199131.6500717518
 30
0.0
 11
389207.7866533594
 21
199131.5749613094
 31
0.0
  0
LINE
  5
AF
  8
MAKE2D$VISIBLE$LINES
 10
389207.7866533594
 20
199131.5749613094
 30
0.0
 11
389207.7828072024
 21
199131.4999384424
 31
0.0
  0
LINE
  5
B0
  8
MAKE2D$VISIBLE$LINES
 10
389207.7828072024
 20
199131.4999384424
 30
0.0
 11
389207.7764019236
 21
199131.4250906241
 31
0.0
  0
LINE
  5
B1
  8
MAKE2D$VISIBLE$LINES
 10
389207.7764019236
 20
199131.4250906241
 30
0.0
 11
389207.7674449914
 21
199131.3505051238
 31
0.0
  0
LINE
  5
B2
  8
MAKE2D$VISIBLE$LINES
 10
389207.7674449914
 20
199131.3505051238
 30
0.0
 11
389207.7559468491
 21
199131.2762689047
 31
0.0
  0
LINE
  5
B3
  8
MAKE2D$VISIBLE$LINES
 10
389207.7559468491
 20
199131.2762689047
 30
0.0
 11
389207.741920903
 21
199131.2024685231
 31
0.0
  0
LINE
  5
B4
  8
MAKE2D$VISIBLE$LINES
 10
389207.741920903
 20
199131.2024685231
 30
0.0
 11
389207.7253835069
 21
199131.1291900268
 31
0.0
  0
LINE
  5
B5
  8
MAKE2D$VISIBLE$LINES
 10
389207.7253835069
 20
199131.1291900268
 30
0.0
 11
389207.7063539423
 21
199131.0565188552
 31
0.0
  0
LINE
  5
B6
  8
MAKE2D$VISIBLE$LINES
 10
389207.7063539423
 20
199131.0565188552
 30
0.0
 11
389207.6848543971
 21
199130.9845397398
 31
0.0
  0
LINE
  5
B7
  8
MAKE2D$VISIBLE$LINES
 10
389207.6848543971
 20
199130.9845397398
 30
0.0
 11
389207.6609099388
 21
199130.913336605
 31
0.0
  0
LINE
  5
B8
  8
MAKE2D$VISIBLE$LINES
 10
389207.6609099388
 20
199130.913336605
 30
0.0
 11
389207.6345484855
 21
199130.8429924704
 31
0.0
  0
LINE
  5
B9
  8
MAKE2D$VISIBLE$LINES
 10
389207.6345484855
 20
199130.8429924704
 30
0.0
 11
389207.6058007735
 21
199130.7735893541
 31
0.0
  0
LINE
  5
BA
  8
MAKE2D$VISIBLE$LINES
 10
389207.6058007735
 20
199130.7735893541
 30
0.0
 11
389207.5747003212
 21
199130.7052081771
 31
0.0
  0
LINE
  5
BB
  8
MAKE2D$VISIBLE$LINES
 10
389207.5747003212
 20
199130.7052081771
 30
0.0
 11
389207.5412833907
 21
199130.6379286688
 31
0.0
  0
LINE
  5
BC
  8
MAKE2D$VISIBLE$LINES
 10
389207.5412833907
 20
199130.6379286688
 30
0.0
 11
389207.5055889442
 21
199130.571829274
 31
0.0
  0
LINE
  5
BD
  8
MAKE2D$VISIBLE$LINES
 10
389207.5055889442
 20
199130.571829274
 30
0.0
 11
389207.4676586001
 21
199130.5069870617
 31
0.0
  0
LINE
  5
BE
  8
MAKE2D$VISIBLE$LINES
 10
389207.4676586001
 20
199130.5069870617
 30
0.0
 11
389207.4275365835
 21
199130.443477635
 31
0.0
  0
LINE
  5
BF
  8
MAKE2D$VISIBLE$LINES
 10
389207.4275365835
 20
199130.443477635
 30
0.0
 11
389207.3852696748
 21
199130.3813750431
 31
0.0
  0
LINE
  5
C0
  8
MAKE2D$VISIBLE$LINES
 10
389207.3852696748
 20
199130.3813750431
 30
0.0
 11
389207.3409071552
 21
199130.3207516948
 31
0.0
  0
LINE
  5
C1
  8
MAKE2D$VISIBLE$LINES
 10
389207.3409071552
 20
199130.3207516948
 30
0.0
 11
389207.2945007497
 21
199130.2616782743
 31
0.0
  0
LINE
  5
C2
  8
MAKE2D$VISIBLE$LINES
 10
389207.2945007497
 20
199130.2616782743
 30
0.0
 11
389207.2461045659
 21
199130.2042236584
 31
0.0
  0
LINE
  5
C3
  8
MAKE2D$VISIBLE$LINES
 10
389207.2461045659
 20
199130.2042236584
 30
0.0
 11
389207.1957750315
 21
199130.1484548367
 31
0.0
  0
LINE
  5
C4
  8
MAKE2D$VISIBLE$LINES
 10
389207.1957750315
 20
199130.1484548367
 30
0.0
 11
389207.1435708287
 21
199130.0944368331
 31
0.0
  0
LINE
  5
C5
  8
MAKE2D$VISIBLE$LINES
 10
389207.1435708287
 20
199130.0944368331
 30
0.0
 11
389207.0895528252
 21
199130.0422326303
 31
0.0
  0
LINE
  5
C6
  8
MAKE2D$VISIBLE$LINES
 10
389207.0895528252
 20
199130.0422326303
 30
0.0
 11
389207.0337840035
 21
199129.991903096
 31
0.0
  0
LINE
  5
C7
  8
MAKE2D$VISIBLE$LINES
 10
389207.0337840035
 20
199129.991903096
 30
0.0
 11
389206.9763293876
 21
199129.9435069122
 31
0.0
  0
LINE
  5
C8
  8
MAKE2D$VISIBLE$LINES
 10
389206.9763293876
 20
199129.9435069122
 30
0.0
 11
389206.9172559671
 21
199129.8971005066
 31
0.0
  0
LINE
  5
C9
  8
MAKE2D$VISIBLE$LINES
 10
389206.9172559671
 20
199129.8971005066
 30
0.0
 11
389206.8566326188
 21
199129.8527379871
 31
0.0
  0
LINE
  5
CA
  8
MAKE2D$VISIBLE$LINES
 10
389206.8566326188
 20
199129.8527379871
 30
0.0
 11
389206.7945300268
 21
199129.8104710784
 31
0.0
  0
LINE
  5
CB
  8
MAKE2D$VISIBLE$LINES
 10
389206.7945300268
 20
199129.8104710784
 30
0.0
 11
389206.7310206002
 21
199129.7703490618
 31
0.0
  0
LINE
  5
CC
  8
MAKE2D$VISIBLE$LINES
 10
389206.7310206002
 20
199129.7703490618
 30
0.0
 11
389206.6661783879
 21
199129.7324187177
 31
0.0
  0
LINE
  5
CD
  8
MAKE2D$VISIBLE$LINES
 10
389206.6661783879
 20
199129.7324187177
 30
0.0
 11
389206.6000789931
 21
199129.6967242713
 31
0.0
  0
LINE
  5
CE
  8
MAKE2D$VISIBLE$LINES
 10
389206.6000789931
 20
199129.6967242713
 30
0.0
 11
389206.5327994848
 21
199129.6633073406
 31
0.0
  0
LINE
  5
CF
  8
MAKE2D$VISIBLE$LINES
 10
389206.5327994848
 20
199129.6633073406
 30
0.0
 11
389206.4644183078
 21
199129.6322068884
 31
0.0
  0
LINE
  5
D0
  8
MAKE2D$VISIBLE$LINES
 10
389206.4644183078
 20
199129.6322068884
 30
0.0
 11
389206.3950151915
 21
199129.6034591764
 31
0.0
  0
LINE
  5
D1
  8
MAKE2D$VISIBLE$LINES
 10
389206.3950151915
 20
199129.6034591764
 30
0.0
 11
389206.3246710569
 21
199129.5770977231
 31
0.0
  0
LINE
  5
D2
  8
MAKE2D$VISIBLE$LINES
 10
389206.3246710569
 20
199129.5770977231
 30
0.0
 11
389206.253467922
 21
199129.5531532648
 31
0.0
  0
LINE
  5
D3
  8
MAKE2D$VISIBLE$LINES
 10
389206.253467922
 20
199129.5531532648
 30
0.0
 11
389206.1814888067
 21
199129.5316537196
 31
0.0
  0
LINE
  5
D4
  8
MAKE2D$VISIBLE$LINES
 10
389206.1814888067
 20
199129.5316537196
 30
0.0
 11
389206.1088176351
 21
199129.5126241551
 31
0.0
  0
LINE
  5
D5
  8
MAKE2D$VISIBLE$LINES
 10
389206.1088176351
 20
199129.5126241551
 30
0.0
 11
389206.0355391388
 21
199129.4960867589
 31
0.0
  0
LINE
  5
D6
  8
MAKE2D$VISIBLE$LINES
 10
389206.0355391388
 20
199129.4960867589
 30
0.0
 11
389205.9617387571
 21
199129.4820608128
 31
0.0
  0
LINE
  5
D7
  8
MAKE2D$VISIBLE$LINES
 10
389205.9617387571
 20
199129.4820608128
 30
0.0
 11
389205.8875025381
 21
199129.4705626705
 31
0.0
  0
LINE
  5
D8
  8
MAKE2D$VISIBLE$LINES
 10
389205.8875025381
 20
199129.4705626705
 30
0.0
 11
389205.8129170378
 21
199129.4616057383
 31
0.0
  0
LINE
  5
D9
  8
MAKE2D$VISIBLE$LINES
 10
389205.8129170378
 20
199129.4616057383
 30
0.0
 11
389205.7380692195
 21
199129.4552004595
 31
0.0
  0
LINE
  5
DA
  8
MAKE2D$VISIBLE$LINES
 10
389205.7380692195
 20
199129.4552004595
 30
0.0
 11
389205.6630463525
 21
199129.4513543026
 31
0.0
  0
LINE
  5
DB
  8
MAKE2D$VISIBLE$LINES
 10
389205.6630463525
 20
199129.4513543026
 30
0.0
 11
389205.5879359101
 21
199129.4500717518
 31
0.0
  0
LINE
  5
DC
  8
MAKE2D$VISIBLE$LINES
 10
389205.5879359101
 20
199129.4500717518
 30
0.0
 11
389114.5879359102
 21
199129.4500717518
 31
0.0
  0
LINE
  5
DD
  8
MAKE2D$VISIBLE$LINES
 10
389114.5879359102
 20
199129.4500717518
 30
0.0
 11
389114.5128254677
 21
199129.4513543026
 31
0.0
  0
LINE
  5
DE
  8
MAKE2D$VISIBLE$LINES
 10
389114.5128254677
 20
199129.4513543026
 30
0.0
 11
389114.4378026007
 21
199129.4552004596
 31
0.0
  0
LINE
  5
DF
  8
MAKE2D$VISIBLE$LINES
 10
389114.4378026007
 20
199129.4552004596
 30
0.0
 11
389114.3629547825
 21
199129.4616057384
 31
0.0
  0
LINE
  5
E0
  8
MAKE2D$VISIBLE$LINES
 10
389114.3629547825
 20
199129.4616057384
 30
0.0
 11
389114.2883692821
 21
199129.4705626706
 31
0.0
  0
LINE
  5
E1
  8
MAKE2D$VISIBLE$LINES
 10
389114.2883692821
 20
199129.4705626706
 30
0.0
 11
389114.2141330631
 21
199129.4820608129
 31
0.0
  0
LINE
  5
E2
  8
MAKE2D$VISIBLE$LINES
 10
389114.2141330631
 20
199129.4820608129
 30
0.0
 11
389114.1403326814
 21
199129.4960867589
 31
0.0
  0
LINE
  5
E3
  8
MAKE2D$VISIBLE$LINES
 10
389114.1403326814
 20
199129.4960867589
 30
0.0
 11
389114.0670541851
 21
199129.5126241551
 31
0.0
  0
LINE
  5
E4
  8
MAKE2D$VISIBLE$LINES
 10
389114.0670541851
 20
199129.5126241551
 30
0.0
 11
389113.9943830136
 21
199129.5316537197
 31
0.0
  0
LINE
  5
E5
  8
MAKE2D$VISIBLE$LINES
 10
389113.9943830136
 20
199129.5316537197
 30
0.0
 11
389113.9224038982
 21
199129.5531532648
 31
0.0
  0
LINE
  5
E6
  8
MAKE2D$VISIBLE$LINES
 10
389113.9224038982
 20
199129.5531532648
 30
0.0
 11
389113.8512007634
 21
199129.5770977232
 31
0.0
  0
LINE
  5
E7
  8
MAKE2D$VISIBLE$LINES
 10
389113.8512007634
 20
199129.5770977232
 30
0.0
 11
389113.7808566288
 21
199129.6034591765
 31
0.0
  0
LINE
  5
E8
  8
MAKE2D$VISIBLE$LINES
 10
389113.7808566288
 20
199129.6034591765
 30
0.0
 11
389113.7114535125
 21
199129.6322068885
 31
0.0
  0
LINE
  5
E9
  8
MAKE2D$VISIBLE$LINES
 10
389113.7114535125
 20
199129.6322068885
 30
0.0
 11
389113.6430723355
 21
199129.6633073407
 31
0.0
  0
LINE
  5
EA
  8
MAKE2D$VISIBLE$LINES
 10
389113.6430723355
 20
199129.6633073407
 30
0.0
 11
389113.5757928271
 21
199129.6967242713
 31
0.0
  0
LINE
  5
EB
  8
MAKE2D$VISIBLE$LINES
 10
389113.5757928271
 20
199129.6967242713
 30
0.0
 11
389113.5096934324
 21
199129.7324187177
 31
0.0
  0
LINE
  5
EC
  8
MAKE2D$VISIBLE$LINES
 10
389113.5096934324
 20
199129.7324187177
 30
0.0
 11
389113.4448512201
 21
199129.7703490618
 31
0.0
  0
LINE
  5
ED
  8
MAKE2D$VISIBLE$LINES
 10
389113.4448512201
 20
199129.7703490618
 30
0.0
 11
389113.3813417934
 21
199129.8104710784
 31
0.0
  0
LINE
  5
EE
  8
MAKE2D$VISIBLE$LINES
 10
389113.3813417934
 20
199129.8104710784
 30
0.0
 11
389113.3192392015
 21
199129.8527379872
 31
0.0
  0
LINE
  5
EF
  8
MAKE2D$VISIBLE$LINES
 10
389113.3192392015
 20
199129.8527379872
 30
0.0
 11
389113.2586158532
 21
199129.8971005067
 31
0.0
  0
LINE
  5
F0
  8
MAKE2D$VISIBLE$LINES
 10
389113.2586158532
 20
199129.8971005067
 30
0.0
 11
389113.1995424326
 21
199129.9435069123
 31
0.0
  0
LINE
  5
F1
  8
MAKE2D$VISIBLE$LINES
 10
389113.1995424326
 20
199129.9435069123
 30
0.0
 11
389113.1420878167
 21
199129.9919030961
 31
0.0
  0
LINE
  5
F2
  8
MAKE2D$VISIBLE$LINES
 10
389113.1420878167
 20
199129.9919030961
 30
0.0
 11
389113.086318995
 21
199130.0422326304
 31
0.0
  0
LINE
  5
F3
  8
MAKE2D$VISIBLE$LINES
 10
389113.086318995
 20
199130.0422326304
 30
0.0
 11
389113.0323009915
 21
199130.0944368332
 31
0.0
  0
LINE
  5
F4
  8
MAKE2D$VISIBLE$LINES
 10
389113.0323009915
 20
199130.0944368332
 30
0.0
 11
389112.9800967887
 21
199130.1484548367
 31
0.0
  0
LINE
  5
F5
  8
MAKE2D$VISIBLE$LINES
 10
389112.9800967887
 20
199130.1484548367
 30
0.0
 11
389112.9297672544
 21
199130.2042236584
 31
0.0
  0
LINE
  5
F6
  8
MAKE2D$VISIBLE$LINES
 10
389112.9297672544
 20
199130.2042236584
 30
0.0
 11
389112.8813710706
 21
199130.2616782743
 31
0.0
  0
LINE
  5
F7
  8
MAKE2D$VISIBLE$LINES
 10
389112.8813710706
 20
199130.2616782743
 30
0.0
 11
389112.834964665
 21
199130.3207516948
 31
0.0
  0
LINE
  5
F8
  8
MAKE2D$VISIBLE$LINES
 10
389112.834964665
 20
199130.3207516948
 30
0.0
 11
389112.7906021455
 21
199130.3813750432
 31
0.0
  0
LINE
  5
F9
  8
MAKE2D$VISIBLE$LINES
 10
389112.7906021455
 20
199130.3813750432
 30
0.0
 11
389112.7483352368
 21
199130.443477635
 31
0.0
  0
LINE
  5
FA
  8
MAKE2D$VISIBLE$LINES
 10
389112.7483352368
 20
199130.443477635
 30
0.0
 11
389112.7082132201
 21
199130.5069870617
 31
0.0
  0
LINE
  5
FB
  8
MAKE2D$VISIBLE$LINES
 10
389112.7082132201
 20
199130.5069870617
 30
0.0
 11
389112.6702828761
 21
199130.571829274
 31
0.0
  0
LINE
  5
FC
  8
MAKE2D$VISIBLE$LINES
 10
389112.6702828761
 20
199130.571829274
 30
0.0
 11
389112.6345884296
 21
199130.6379286688
 31
0.0
  0
LINE
  5
FD
  8
MAKE2D$VISIBLE$LINES
 10
389112.6345884296
 20
199130.6379286688
 30
0.0
 11
389112.601171499
 21
199130.7052081771
 31
0.0
  0
LINE
  5
FE
  8
MAKE2D$VISIBLE$LINES
 10
389112.601171499
 20
199130.7052081771
 30
0.0
 11
389112.5700710468
 21
199130.7735893541
 31
0.0
  0
LINE
  5
FF
  8
MAKE2D$VISIBLE$LINES
 10
389112.5700710468
 20
199130.7735893541
 30
0.0
 11
389112.5413233348
 21
199130.8429924704
 31
0.0
  0
LINE
  5
100
  8
MAKE2D$VISIBLE$LINES
 10
389112.5413233348
 20
199130.8429924704
 30
0.0
 11
389112.5149618815
 21
199130.913336605
 31
0.0
  0
LINE
  5
101
  8
MAKE2D$VISIBLE$LINES
 10
389112.5149618815
 20
199130.913336605
 30
0.0
 11
389112.4910174232
 21
199130.9845397398
 31
0.0
  0
LINE
  5
102
  8
MAKE2D$VISIBLE$LINES
 10
389112.4910174232
 20
199130.9845397398
 30
0.0
 11
389112.469517878
 21
199131.0565188552
 31
0.0
  0
LINE
  5
103
  8
MAKE2D$VISIBLE$LINES
 10
389112.469517878
 20
199131.0565188552
 30
0.0
 11
389112.4504883135
 21
199131.1291900268
 31
0.0
  0
LINE
  5
104
  8
MAKE2D$VISIBLE$LINES
 10
389112.4504883135
 20
199131.1291900268
 30
0.0
 11
389112.4339509172
 21
199131.2024685231
 31
0.0
  0
LINE
  5
105
  8
MAKE2D$VISIBLE$LINES
 10
389112.4339509172
 20
199131.2024685231
 30
0.0
 11
389112.4199249712
 21
199131.2762689047
 31
0.0
  0
LINE
  5
106
  8
MAKE2D$VISIBLE$LINES
 10
389112.4199249712
 20
199131.2762689047
 30
0.0
 11
389112.4084268289
 21
199131.3505051238
 31
0.0
  0
LINE
  5
107
  8
MAKE2D$VISIBLE$LINES
 10
389112.4084268289
 20
199131.3505051238
 30
0.0
 11
389112.3994698966
 21
199131.4250906241
 31
0.0
  0
LINE
  5
108
  8
MAKE2D$VISIBLE$LINES
 10
389112.3994698966
 20
199131.4250906241
 30
0.0
 11
389112.3930646179
 21
199131.4999384424
 31
0.0
  0
LINE
  5
109
  8
MAKE2D$VISIBLE$LINES
 10
389112.3930646179
 20
199131.4999384424
 30
0.0
 11
389112.3892184609
 21
199131.5749613094
 31
0.0
  0
LINE
  5
10A
  8
MAKE2D$VISIBLE$LINES
 10
389112.3892184609
 20
199131.5749613094
 30
0.0
 11
389112.3879359101
 21
199131.6500717518
 31
0.0
  0
LINE
  5
10B
  8
MAKE2D$VISIBLE$LINES
 10
389112.3879359101
 20
199131.6500717518
 30
0.0
 11
389112.3879359101
 21
199222.6500717518
 31
0.0
  0
LINE
  5
10C
  8
MAKE2D$VISIBLE$LINES
 10
389112.3879359101
 20
199222.6500717518
 30
0.0
 11
389112.3892184609
 21
199222.7251821942
 31
0.0
  0
LINE
  5
10D
  8
MAKE2D$VISIBLE$LINES
 10
389112.3892184609
 20
199222.7251821942
 30
0.0
 11
389112.3930646179
 21
199222.8002050612
 31
0.0
  0
LINE
  5
10E
  8
MAKE2D$VISIBLE$LINES
 10
389112.3930646179
 20
199222.8002050612
 30
0.0
 11
389112.3994698967
 21
199222.8750528794
 31
0.0
  0
LINE
  5
10F
  8
MAKE2D$VISIBLE$LINES
 10
389112.3994698967
 20
199222.8750528794
 30
0.0
 11
389112.4084268289
 21
199222.9496383798
 31
0.0
  0
LINE
  5
110
  8
MAKE2D$VISIBLE$LINES
 10
389112.4084268289
 20
199222.9496383798
 30
0.0
 11
389112.4199249712
 21
199223.0238745988
 31
0.0
  0
LINE
  5
111
  8
MAKE2D$VISIBLE$LINES
 10
389112.4199249712
 20
199223.0238745988
 30
0.0
 11
389112.4339509173
 21
199223.0976749805
 31
0.0
  0
LINE
  5
112
  8
MAKE2D$VISIBLE$LINES
 10
389112.4339509173
 20
199223.0976749805
 30
0.0
 11
389112.4504883135
 21
199223.1709534768
 31
0.0
  0
LINE
  5
113
  8
MAKE2D$VISIBLE$LINES
 10
389112.4504883135
 20
199223.1709534768
 30
0.0
 11
389112.469517878
 21
199223.2436246483
 31
0.0
  0
LINE
  5
114
  8
MAKE2D$VISIBLE$LINES
 10
389112.469517878
 20
199223.2436246483
 30
0.0
 11
389112.4910174232
 21
199223.3156037637
 31
0.0
  0
LINE
  5
115
  8
MAKE2D$VISIBLE$LINES
 10
389112.4910174232
 20
199223.3156037637
 30
0.0
 11
389112.5149618815
 21
199223.3868068985
 31
0.0
  0
LINE
  5
116
  8
MAKE2D$VISIBLE$LINES
 10
389112.5149618815
 20
199223.3868068985
 30
0.0
 11
389112.5413233349
 21
199223.4571510332
 31
0.0
  0
LINE
  5
117
  8
MAKE2D$VISIBLE$LINES
 10
389112.5413233349
 20
199223.4571510332
 30
0.0
 11
389112.5700710469
 21
199223.5265541494
 31
0.0
  0
LINE
  5
118
  8
MAKE2D$VISIBLE$LINES
 10
389112.5700710469
 20
199223.5265541494
 30
0.0
 11
389112.6011714991
 21
199223.5949353265
 31
0.0
  0
LINE
  5
119
  8
MAKE2D$VISIBLE$LINES
 10
389112.6011714991
 20
199223.5949353265
 30
0.0
 11
389112.6345884297
 21
199223.6622148348
 31
0.0
  0
LINE
  5
11A
  8
MAKE2D$VISIBLE$LINES
 10
389112.6345884297
 20
199223.6622148348
 30
0.0
 11
389112.6702828762
 21
199223.7283142295
 31
0.0
  0
LINE
  5
11B
  8
MAKE2D$VISIBLE$LINES
 10
389112.6702828762
 20
199223.7283142295
 30
0.0
 11
389112.7082132202
 21
199223.7931564419
 31
0.0
  0
LINE
  5
11C
  8
MAKE2D$VISIBLE$LINES
 10
389112.7082132202
 20
199223.7931564419
 30
0.0
 11
389112.7483352368
 21
199223.8566658685
 31
0.0
  0
LINE
  5
11D
  8
MAKE2D$VISIBLE$LINES
 10
389112.7483352368
 20
199223.8566658685
 30
0.0
 11
389112.7906021455
 21
199223.9187684604
 31
0.0
  0
LINE
  5
11E
  8
MAKE2D$VISIBLE$LINES
 10
389112.7906021455
 20
199223.9187684604
 30
0.0
 11
389112.8349646651
 21
199223.9793918087
 31
0.0
  0
LINE
  5
11F
  8
MAKE2D$VISIBLE$LINES
 10
389112.8349646651
 20
199223.9793918087
 30
0.0
 11
389112.8813710706
 21
199224.0384652293
 31
0.0
  0
LINE
  5
120
  8
MAKE2D$VISIBLE$LINES
 10
389112.8813710706
 20
199224.0384652293
 30
0.0
 11
389112.9297672544
 21
199224.0959198451
 31
0.0
  0
LINE
  5
121
  8
MAKE2D$VISIBLE$LINES
 10
389112.9297672544
 20
199224.0959198451
 30
0.0
 11
389112.9800967888
 21
199224.1516886668
 31
0.0
  0
LINE
  5
122
  8
MAKE2D$VISIBLE$LINES
 10
389112.9800967888
 20
199224.1516886668
 30
0.0
 11
389113.0323009916
 21
199224.2057066704
 31
0.0
  0
LINE
  5
123
  8
MAKE2D$VISIBLE$LINES
 10
389113.0323009916
 20
199224.2057066704
 30
0.0
 11
389113.0863189951
 21
199224.2579108732
 31
0.0
  0
LINE
  5
124
  8
MAKE2D$VISIBLE$LINES
 10
389113.0863189951
 20
199224.2579108732
 30
0.0
 11
389113.1420878168
 21
199224.3082404075
 31
0.0
  0
LINE
  5
125
  8
MAKE2D$VISIBLE$LINES
 10
389113.1420878168
 20
199224.3082404075
 30
0.0
 11
389113.1995424327
 21
199224.3566365913
 31
0.0
  0
LINE
  5
126
  8
MAKE2D$VISIBLE$LINES
 10
389113.1995424327
 20
199224.3566365913
 30
0.0
 11
389113.2586158533
 21
199224.4030429969
 31
0.0
  0
LINE
  5
127
  8
MAKE2D$VISIBLE$LINES
 10
389113.2586158533
 20
199224.4030429969
 30
0.0
 11
389113.3192392015
 21
199224.4474055164
 31
0.0
  0
LINE
  5
128
  8
MAKE2D$VISIBLE$LINES
 10
389113.3192392015
 20
199224.4474055164
 30
0.0
 11
389113.3813417934
 21
199224.4896724251
 31
0.0
  0
LINE
  5
129
  8
MAKE2D$VISIBLE$LINES
 10
389113.3813417934
 20
199224.4896724251
 30
0.0
 11
389113.4448512201
 21
199224.5297944418
 31
0.0
  0
LINE
  5
12A
  8
MAKE2D$VISIBLE$LINES
 10
389113.4448512201
 20
199224.5297944418
 30
0.0
 11
389113.5096934324
 21
199224.5677247858
 31
0.0
  0
LINE
  5
12B
  8
MAKE2D$VISIBLE$LINES
 10
389113.5096934324
 20
199224.5677247858
 30
0.0
 11
389113.5757928272
 21
199224.6034192322
 31
0.0
  0
LINE
  5
12C
  8
MAKE2D$VISIBLE$LINES
 10
389113.5757928272
 20
199224.6034192322
 30
0.0
 11
389113.6430723355
 21
199224.6368361629
 31
0.0
  0
LINE
  5
12D
  8
MAKE2D$VISIBLE$LINES
 10
389113.6430723355
 20
199224.6368361629
 30
0.0
 11
389113.7114535125
 21
199224.6679366151
 31
0.0
  0
LINE
  5
12E
  8
MAKE2D$VISIBLE$LINES
 10
389113.7114535125
 20
199224.6679366151
 30
0.0
 11
389113.7808566288
 21
199224.6966843271
 31
0.0
  0
LINE
  5
12F
  8
MAKE2D$VISIBLE$LINES
 10
389113.7808566288
 20
199224.6966843271
 30
0.0
 11
389113.8512007634
 21
199224.7230457804
 31
0.0
  0
LINE
  5
130
  8
MAKE2D$VISIBLE$LINES
 10
389113.8512007634
 20
199224.7230457804
 30
0.0
 11
389113.9224038982
 21
199224.7469902388
 31
0.0
  0
LINE
  5
131
  8
MAKE2D$VISIBLE$LINES
 10
389113.9224038982
 20
199224.7469902388
 30
0.0
 11
389113.9943830136
 21
199224.7684897839
 31
0.0
  0
LINE
  5
132
  8
MAKE2D$VISIBLE$LINES
 10
389113.9943830136
 20
199224.7684897839
 30
0.0
 11
389114.0670541851
 21
199224.7875193485
 31
0.0
  0
LINE
  5
133
  8
MAKE2D$VISIBLE$LINES
 10
389114.0670541851
 20
199224.7875193485
 30
0.0
 11
389114.1403326814
 21
199224.8040567447
 31
0.0
  0
LINE
  5
134
  8
MAKE2D$VISIBLE$LINES
 10
389114.1403326814
 20
199224.8040567447
 30
0.0
 11
389114.2141330631
 21
199224.8180826908
 31
0.0
  0
LINE
  5
135
  8
MAKE2D$VISIBLE$LINES
 10
389114.2141330631
 20
199224.8180826908
 30
0.0
 11
389114.2883692821
 21
199224.8295808331
 31
0.0
  0
LINE
  5
136
  8
MAKE2D$VISIBLE$LINES
 10
389114.2883692821
 20
199224.8295808331
 30
0.0
 11
389114.3629547825
 21
199224.8385377653
 31
0.0
  0
LINE
  5
137
  8
MAKE2D$VISIBLE$LINES
 10
389114.3629547825
 20
199224.8385377653
 30
0.0
 11
389114.4378026007
 21
199224.844943044
 31
0.0
  0
LINE
  5
138
  8
MAKE2D$VISIBLE$LINES
 10
389114.4378026007
 20
199224.844943044
 30
0.0
 11
389114.5128254677
 21
199224.848789201
 31
0.0
  0
LINE
  5
139
  8
MAKE2D$VISIBLE$LINES
 10
389114.5128254677
 20
199224.848789201
 30
0.0
 11
389114.5879359102
 21
199224.8500717518
 31
0.0
  0
LINE
  5
13A
  8
MAKE2D$VISIBLE$LINES
 10
389114.5879359102
 20
199224.8500717518
 30
0.0
 11
389205.5879359102
 21
199224.8500717518
 31
0.0
  0
LINE
  5
13B
  8
MAKE2D$VISIBLE$LINES
 10
389205.5879359102
 20
199227.1500717518
 30
0.0
 11
389114.5879359102
 21
199227.1500717518
 31
0.0
  0
LINE
  5
13C
  8
MAKE2D$VISIBLE$LINES
 10
389114.5879359102
 20
199227.1500717518
 30
0.0
 11
389114.4343009143
 21
199227.1474483525
 31
0.0
  0
LINE
  5
13D
  8
MAKE2D$VISIBLE$LINES
 10
389114.4343009143
 20
199227.1474483525
 30
0.0
 11
389114.28084505
 21
199227.1395812132
 31
0.0
  0
LINE
  5
13E
  8
MAKE2D$VISIBLE$LINES
 10
389114.28084505
 20
199227.1395812132
 30
0.0
 11
389114.1277472399
 21
199227.1264795067
 31
0.0
  0
LINE
  5
13F
  8
MAKE2D$VISIBLE$LINES
 10
389114.1277472399
 20
199227.1264795067
 30
0.0
 11
389113.9751859892
 21
199227.108158509
 31
0.0
  0
LINE
  5
140
  8
MAKE2D$VISIBLE$LINES
 10
389113.9751859892
 20
199227.108158509
 30
0.0
 11
389113.8233391775
 21
199227.0846395815
 31
0.0
  0
LINE
  5
141
  8
MAKE2D$VISIBLE$LINES
 10
389113.8233391775
 20
199227.0846395815
 30
0.0
 11
389113.6723838514
 21
199227.0559501464
 31
0.0
  0
LINE
  5
142
  8
MAKE2D$VISIBLE$LINES
 10
389113.6723838514
 20
199227.0559501464
 30
0.0
 11
389113.522496018
 21
199227.0221236541
 31
0.0
  0
LINE
  5
143
  8
MAKE2D$VISIBLE$LINES
 10
389113.522496018
 20
199227.0221236541
 30
0.0
 11
389113.37385044
 21
199226.9831995449
 31
0.0
  0
LINE
  5
144
  8
MAKE2D$VISIBLE$LINES
 10
389113.37385044
 20
199226.9831995449
 30
0.0
 11
389113.2266204312
 21
199226.9392232025
 31
0.0
  0
LINE
  5
145
  8
MAKE2D$VISIBLE$LINES
 10
389113.2266204312
 20
199226.9392232025
 30
0.0
 11
389113.0809776554
 21
199226.8902459013
 31
0.0
  0
LINE
  5
146
  8
MAKE2D$VISIBLE$LINES
 10
389113.0809776554
 20
199226.8902459013
 30
0.0
 11
389112.9370919255
 21
199226.8363247468
 31
0.0
  0
LINE
  5
147
  8
MAKE2D$VISIBLE$LINES
 10
389112.9370919255
 20
199226.8363247468
 30
0.0
 11
389112.7951310059
 21
199226.7775226086
 31
0.0
  0
LINE
  5
148
  8
MAKE2D$VISIBLE$LINES
 10
389112.7951310059
 20
199226.7775226086
 30
0.0
 11
389112.6552604165
 21
199226.7139080472
 31
0.0
  0
LINE
  5
149
  8
MAKE2D$VISIBLE$LINES
 10
389112.6552604165
 20
199226.7139080472
 30
0.0
 11
389112.5176432403
 21
199226.6455552346
 31
0.0
  0
LINE
  5
14A
  8
MAKE2D$VISIBLE$LINES
 10
389112.5176432403
 20
199226.6455552346
 30
0.0
 11
389112.3824399328
 21
199226.5725438669
 31
0.0
  0
LINE
  5
14B
  8
MAKE2D$VISIBLE$LINES
 10
389112.3824399328
 20
199226.5725438669
 30
0.0
 11
389112.249808135
 21
199226.4949590722
 31
0.0
  0
LINE
  5
14C
  8
MAKE2D$VISIBLE$LINES
 10
389112.249808135
 20
199226.4949590722
 30
0.0
 11
389112.1199024895
 21
199226.4128913109
 31
0.0
  0
LINE
  5
14D
  8
MAKE2D$VISIBLE$LINES
 10
389112.1199024895
 20
199226.4128913109
 30
0.0
 11
389111.9928744606
 21
199226.3264362703
 31
0.0
  0
LINE
  5
14E
  8
MAKE2D$VISIBLE$LINES
 10
389111.9928744606
 20
199226.3264362703
 30
0.0
 11
389111.8688721573
 21
199226.2356947532
 31
0.0
  0
LINE
  5
14F
  8
MAKE2D$VISIBLE$LINES
 10
389111.8688721573
 20
199226.2356947532
 30
0.0
 11
389111.7480401607
 21
199226.14077256
 31
0.0
  0
LINE
  5
150
  8
MAKE2D$VISIBLE$LINES
 10
389111.7480401607
 20
199226.14077256
 30
0.0
 11
389111.6305193555
 21
199226.0417803658
 31
0.0
  0
LINE
  5
151
  8
MAKE2D$VISIBLE$LINES
 10
389111.6305193555
 20
199226.0417803658
 30
0.0
 11
389111.5164467657
 21
199225.938833591
 31
0.0
  0
LINE
  5
152
  8
MAKE2D$VISIBLE$LINES
 10
389111.5164467657
 20
199225.938833591
 30
0.0
 11
389111.4059553948
 21
199225.8320522671
 31
0.0
  0
LINE
  5
153
  8
MAKE2D$VISIBLE$LINES
 10
389111.4059553948
 20
199225.8320522671
 30
0.0
 11
389111.2991740709
 21
199225.7215608963
 31
0.0
  0
LINE
  5
154
  8
MAKE2D$VISIBLE$LINES
 10
389111.2991740709
 20
199225.7215608963
 30
0.0
 11
389111.1962272962
 21
199225.6074883065
 31
0.0
  0
LINE
  5
155
  8
MAKE2D$VISIBLE$LINES
 10
389111.1962272962
 20
199225.6074883065
 30
0.0
 11
389111.097235102
 21
199225.4899675013
 31
0.0
  0
LINE
  5
156
  8
MAKE2D$VISIBLE$LINES
 10
389111.097235102
 20
199225.4899675013
 30
0.0
 11
389111.0023129088
 21
199225.3691355046
 31
0.0
  0
LINE
  5
157
  8
MAKE2D$VISIBLE$LINES
 10
389111.0023129088
 20
199225.3691355046
 30
0.0
 11
389110.9115713916
 21
199225.2451332013
 31
0.0
  0
LINE
  5
158
  8
MAKE2D$VISIBLE$LINES
 10
389110.9115713916
 20
199225.2451332013
 30
0.0
 11
389110.825116351
 21
199225.1181051724
 31
0.0
  0
LINE
  5
159
  8
MAKE2D$VISIBLE$LINES
 10
389110.825116351
 20
199225.1181051724
 30
0.0
 11
389110.7430485897
 21
199224.9881995269
 31
0.0
  0
LINE
  5
15A
  8
MAKE2D$VISIBLE$LINES
 10
389110.7430485897
 20
199224.9881995269
 30
0.0
 11
389110.665463795
 21
199224.8555677291
 31
0.0
  0
LINE
  5
15B
  8
MAKE2D$VISIBLE$LINES
 10
389110.665463795
 20
199224.8555677291
 30
0.0
 11
389110.5924524273
 21
199224.7203644216
 31
0.0
  0
LINE
  5
15C
  8
MAKE2D$VISIBLE$LINES
 10
389110.5924524273
 20
199224.7203644216
 30
0.0
 11
389110.5240996147
 21
199224.5827472454
 31
0.0
  0
LINE
  5
15D
  8
MAKE2D$VISIBLE$LINES
 10
389110.5240996147
 20
199224.5827472454
 30
0.0
 11
389110.4604850534
 21
199224.4428766561
 31
0.0
  0
LINE
  5
15E
  8
MAKE2D$VISIBLE$LINES
 10
389110.4604850534
 20
199224.4428766561
 30
0.0
 11
389110.4016829151
 21
199224.3009157364
 31
0.0
  0
LINE
  5
15F
  8
MAKE2D$VISIBLE$LINES
 10
389110.4016829151
 20
199224.3009157364
 30
0.0
 11
389110.3477617606
 21
199224.1570300066
 31
0.0
  0
LINE
  5
160
  8
MAKE2D$VISIBLE$LINES
 10
389110.3477617606
 20
199224.1570300066
 30
0.0
 11
389110.2987844595
 21
199224.0113872308
 31
0.0
  0
LINE
  5
161
  8
MAKE2D$VISIBLE$LINES
 10
389110.2987844595
 20
199224.0113872308
 30
0.0
 11
389110.2548081171
 21
199223.864157222
 31
0.0
  0
LINE
  5
162
  8
MAKE2D$VISIBLE$LINES
 10
389110.2548081171
 20
199223.864157222
 30
0.0
 11
389110.2158840079
 21
199223.7155116439
 31
0.0
  0
LINE
  5
163
  8
MAKE2D$VISIBLE$LINES
 10
389110.2158840079
 20
199223.7155116439
 30
0.0
 11
389110.1820575156
 21
199223.5656238105
 31
0.0
  0
LINE
  5
164
  8
MAKE2D$VISIBLE$LINES
 10
389110.1820575156
 20
199223.5656238105
 30
0.0
 11
389110.1533680804
 21
199223.4146684844
 31
0.0
  0
LINE
  5
165
  8
MAKE2D$VISIBLE$LINES
 10
389110.1533680804
 20
199223.4146684844
 30
0.0
 11
389110.129849153
 21
199223.2628216727
 31
0.0
  0
LINE
  5
166
  8
MAKE2D$VISIBLE$LINES
 10
389110.129849153
 20
199223.2628216727
 30
0.0
 11
389110.1115281553
 21
199223.110260422
 31
0.0
  0
LINE
  5
167
  8
MAKE2D$VISIBLE$LINES
 10
389110.1115281553
 20
199223.110260422
 30
0.0
 11
389110.0984264488
 21
199222.9571626119
 31
0.0
  0
LINE
  5
168
  8
MAKE2D$VISIBLE$LINES
 10
389110.0984264488
 20
199222.9571626119
 30
0.0
 11
389110.0905593095
 21
199222.8037067476
 31
0.0
  0
LINE
  5
169
  8
MAKE2D$VISIBLE$LINES
 10
389110.0905593095
 20
199222.8037067476
 30
0.0
 11
389110.0879359102
 21
199222.6500717518
 31
0.0
  0
LINE
  5
16A
  8
MAKE2D$VISIBLE$LINES
 10
389110.0879359102
 20
199222.6500717518
 30
0.0
 11
389110.0879359102
 21
199131.6500717518
 31
0.0
  0
LINE
  5
16B
  8
MAKE2D$VISIBLE$LINES
 10
389110.0879359102
 20
199131.6500717518
 30
0.0
 11
389110.0905593094
 21
199131.496436756
 31
0.0
  0
LINE
  5
16C
  8
MAKE2D$VISIBLE$LINES
 10
389110.0905593094
 20
199131.496436756
 30
0.0
 11
389110.0984264488
 21
199131.3429808916
 31
0.0
  0
LINE
  5
16D
  8
MAKE2D$VISIBLE$LINES
 10
389110.0984264488
 20
199131.3429808916
 30
0.0
 11
389110.1115281553
 21
199131.1898830816
 31
0.0
  0
LINE
  5
16E
  8
MAKE2D$VISIBLE$LINES
 10
389110.1115281553
 20
199131.1898830816
 30
0.0
 11
389110.1298491529
 21
199131.0373218309
 31
0.0
  0
LINE
  5
16F
  8
MAKE2D$VISIBLE$LINES
 10
389110.1298491529
 20
199131.0373218309
 30
0.0
 11
389110.1533680803
 21
199130.8854750192
 31
0.0
  0
LINE
  5
170
  8
MAKE2D$VISIBLE$LINES
 10
389110.1533680803
 20
199130.8854750192
 30
0.0
 11
389110.1820575155
 21
199130.7345196931
 31
0.0
  0
LINE
  5
171
  8
MAKE2D$VISIBLE$LINES
 10
389110.1820575155
 20
199130.7345196931
 30
0.0
 11
389110.2158840078
 21
199130.5846318597
 31
0.0
  0
LINE
  5
172
  8
MAKE2D$VISIBLE$LINES
 10
389110.2158840078
 20
199130.5846318597
 30
0.0
 11
389110.2548081171
 21
199130.4359862816
 31
0.0
  0
LINE
  5
173
  8
MAKE2D$VISIBLE$LINES
 10
389110.2548081171
 20
199130.4359862816
 30
0.0
 11
389110.2987844595
 21
199130.2887562728
 31
0.0
  0
LINE
  5
174
  8
MAKE2D$VISIBLE$LINES
 10
389110.2987844595
 20
199130.2887562728
 30
0.0
 11
389110.3477617606
 21
199130.1431134971
 31
0.0
  0
LINE
  5
175
  8
MAKE2D$VISIBLE$LINES
 10
389110.3477617606
 20
199130.1431134971
 30
0.0
 11
389110.4016829151
 21
199129.9992277671
 31
0.0
  0
LINE
  5
176
  8
MAKE2D$VISIBLE$LINES
 10
389110.4016829151
 20
199129.9992277671
 30
0.0
 11
389110.4604850533
 21
199129.8572668475
 31
0.0
  0
LINE
  5
177
  8
MAKE2D$VISIBLE$LINES
 10
389110.4604850533
 20
199129.8572668475
 30
0.0
 11
389110.5240996146
 21
199129.7173962582
 31
0.0
  0
LINE
  5
178
  8
MAKE2D$VISIBLE$LINES
 10
389110.5240996146
 20
199129.7173962582
 30
0.0
 11
389110.5924524273
 21
199129.579779082
 31
0.0
  0
LINE
  5
179
  8
MAKE2D$VISIBLE$LINES
 10
389110.5924524273
 20
199129.579779082
 30
0.0
 11
389110.665463795
 21
199129.4445757745
 31
0.0
  0
LINE
  5
17A
  8
MAKE2D$VISIBLE$LINES
 10
389110.665463795
 20
199129.4445757745
 30
0.0
 11
389110.7430485897
 21
199129.3119439767
 31
0.0
  0
LINE
  5
17B
  8
MAKE2D$VISIBLE$LINES
 10
389110.7430485897
 20
199129.3119439767
 30
0.0
 11
389110.825116351
 21
199129.1820383312
 31
0.0
  0
LINE
  5
17C
  8
MAKE2D$VISIBLE$LINES
 10
389110.825116351
 20
199129.1820383312
 30
0.0
 11
389110.9115713916
 21
199129.0550103023
 31
0.0
  0
LINE
  5
17D
  8
MAKE2D$VISIBLE$LINES
 10
389110.9115713916
 20
199129.0550103023
 30
0.0
 11
389111.0023129088
 21
199128.931007999
 31
0.0
  0
LINE
  5
17E
  8
MAKE2D$VISIBLE$LINES
 10
389111.0023129088
 20
199128.931007999
 30
0.0
 11
389111.097235102
 21
199128.8101760024
 31
0.0
  0
LINE
  5
17F
  8
MAKE2D$VISIBLE$LINES
 10
389111.097235102
 20
199128.8101760024
 30
0.0
 11
389111.1962272961
 21
199128.6926551972
 31
0.0
  0
LINE
  5
180
  8
MAKE2D$VISIBLE$LINES
 10
389111.1962272961
 20
199128.6926551972
 30
0.0
 11
389111.2991740709
 21
199128.5785826074
 31
0.0
  0
LINE
  5
181
  8
MAKE2D$VISIBLE$LINES
 10
389111.2991740709
 20
199128.5785826074
 30
0.0
 11
389111.4059553948
 21
199128.4680912365
 31
0.0
  0
LINE
  5
182
  8
MAKE2D$VISIBLE$LINES
 10
389111.4059553948
 20
199128.4680912365
 30
0.0
 11
389111.5164467656
 21
199128.3613099126
 31
0.0
  0
LINE
  5
183
  8
MAKE2D$VISIBLE$LINES
 10
389111.5164467656
 20
199128.3613099126
 30
0.0
 11
389111.6305193555
 21
199128.2583631379
 31
0.0
  0
LINE
  5
184
  8
MAKE2D$VISIBLE$LINES
 10
389111.6305193555
 20
199128.2583631379
 30
0.0
 11
389111.7480401607
 21
199128.1593709437
 31
0.0
  0
LINE
  5
185
  8
MAKE2D$VISIBLE$LINES
 10
389111.7480401607
 20
199128.1593709437
 30
0.0
 11
389111.8688721573
 21
199128.0644487505
 31
0.0
  0
LINE
  5
186
  8
MAKE2D$VISIBLE$LINES
 10
389111.8688721573
 20
199128.0644487505
 30
0.0
 11
389111.9928744606
 21
199127.9737072333
 31
0.0
  0
LINE
  5
187
  8
MAKE2D$VISIBLE$LINES
 10
389111.9928744606
 20
199127.9737072333
 30
0.0
 11
389112.1199024895
 21
199127.8872521927
 31
0.0
  0
LINE
  5
188
  8
MAKE2D$VISIBLE$LINES
 10
389112.1199024895
 20
199127.8872521927
 30
0.0
 11
389112.249808135
 21
199127.8051844314
 31
0.0
  0
LINE
  5
189
  8
MAKE2D$VISIBLE$LINES
 10
389112.249808135
 20
199127.8051844314
 30
0.0
 11
389112.3824399328
 21
199127.7275996367
 31
0.0
  0
LINE
  5
18A
  8
MAKE2D$VISIBLE$LINES
 10
389112.3824399328
 20
199127.7275996367
 30
0.0
 11
389112.5176432403
 21
199127.654588269
 31
0.0
  0
LINE
  5
18B
  8
MAKE2D$VISIBLE$LINES
 10
389112.5176432403
 20
199127.654588269
 30
0.0
 11
389112.6552604164
 21
199127.5862354564
 31
0.0
  0
LINE
  5
18C
  8
MAKE2D$VISIBLE$LINES
 10
389112.6552604164
 20
199127.5862354564
 30
0.0
 11
389112.7951310058
 21
199127.5226208951
 31
0.0
  0
LINE
  5
18D
  8
MAKE2D$VISIBLE$LINES
 10
389112.7951310058
 20
199127.5226208951
 30
0.0
 11
389112.9370919254
 21
199127.4638187568
 31
0.0
  0
LINE
  5
18E
  8
MAKE2D$VISIBLE$LINES
 10
389112.9370919254
 20
199127.4638187568
 30
0.0
 11
389113.0809776553
 21
199127.4098976023
 31
0.0
  0
LINE
  5
18F
  8
MAKE2D$VISIBLE$LINES
 10
389113.0809776553
 20
199127.4098976023
 30
0.0
 11
389113.2266204311
 21
199127.3609203011
 31
0.0
  0
LINE
  5
190
  8
MAKE2D$VISIBLE$LINES
 10
389113.2266204311
 20
199127.3609203011
 30
0.0
 11
389113.3738504399
 21
199127.3169439588
 31
0.0
  0
LINE
  5
191
  8
MAKE2D$VISIBLE$LINES
 10
389113.3738504399
 20
199127.3169439588
 30
0.0
 11
389113.522496018
 21
199127.2780198495
 31
0.0
  0
LINE
  5
192
  8
MAKE2D$VISIBLE$LINES
 10
389113.522496018
 20
199127.2780198495
 30
0.0
 11
389113.6723838514
 21
199127.2441933572
 31
0.0
  0
LINE
  5
193
  8
MAKE2D$VISIBLE$LINES
 10
389113.6723838514
 20
199127.2441933572
 30
0.0
 11
389113.8233391775
 21
199127.2155039221
 31
0.0
  0
LINE
  5
194
  8
MAKE2D$VISIBLE$LINES
 10
389113.8233391775
 20
199127.2155039221
 30
0.0
 11
389113.9751859892
 21
199127.1919849946
 31
0.0
  0
LINE
  5
195
  8
MAKE2D$VISIBLE$LINES
 10
389113.9751859892
 20
199127.1919849946
 30
0.0
 11
389114.1277472398
 21
199127.1736639969
 31
0.0
  0
LINE
  5
196
  8
MAKE2D$VISIBLE$LINES
 10
389114.1277472398
 20
199127.1736639969
 30
0.0
 11
389114.2808450499
 21
199127.1605622904
 31
0.0
  0
LINE
  5
197
  8
MAKE2D$VISIBLE$LINES
 10
389114.2808450499
 20
199127.1605622904
 30
0.0
 11
389114.4343009142
 21
199127.1526951511
 31
0.0
  0
LINE
  5
198
  8
MAKE2D$VISIBLE$LINES
 10
389114.4343009142
 20
199127.1526951511
 30
0.0
 11
389114.5879359101
 21
199127.1500717518
 31
0.0
  0
LINE
  5
199
  8
MAKE2D$VISIBLE$LINES
 10
389114.5879359101
 20
199127.1500717518
 30
0.0
 11
389205.5879359102
 21
199127.1500717518
 31
0.0
  0
LINE
  5
19A
  8
MAKE2D$VISIBLE$LINES
 10
389205.5879359102
 20
199127.1500717518
 30
0.0
 11
389205.741570906
 21
199127.1526951511
 31
0.0
  0
LINE
  5
19B
  8
MAKE2D$VISIBLE$LINES
 10
389205.741570906
 20
199127.1526951511
 30
0.0
 11
389205.8950267703
 21
199127.1605622904
 31
0.0
  0
LINE
  5
19C
  8
MAKE2D$VISIBLE$LINES
 10
389205.8950267703
 20
199127.1605622904
 30
0.0
 11
389206.0481245804
 21
199127.1736639969
 31
0.0
  0
LINE
  5
19D
  8
MAKE2D$VISIBLE$LINES
 10
389206.0481245804
 20
199127.1736639969
 30
0.0
 11
389206.2006858311
 21
199127.1919849946
 31
0.0
  0
LINE
  5
19E
  8
MAKE2D$VISIBLE$LINES
 10
389206.2006858311
 20
199127.1919849946
 30
0.0
 11
389206.3525326428
 21
199127.2155039221
 31
0.0
  0
LINE
  5
19F
  8
MAKE2D$VISIBLE$LINES
 10
389206.3525326428
 20
199127.2155039221
 30
0.0
 11
389206.5034879689
 21
199127.2441933572
 31
0.0
  0
LINE
  5
1A0
  8
MAKE2D$VISIBLE$LINES
 10
389206.5034879689
 20
199127.2441933572
 30
0.0
 11
389206.6533758023
 21
199127.2780198495
 31
0.0
  0
LINE
  5
1A1
  8
MAKE2D$VISIBLE$LINES
 10
389206.6533758023
 20
199127.2780198495
 30
0.0
 11
389206.8020213803
 21
199127.3169439587
 31
0.0
  0
LINE
  5
1A2
  8
MAKE2D$VISIBLE$LINES
 10
389206.8020213803
 20
199127.3169439587
 30
0.0
 11
389206.9492513891
 21
199127.3609203011
 31
0.0
  0
LINE
  5
1A3
  8
MAKE2D$VISIBLE$LINES
 10
389206.9492513891
 20
199127.3609203011
 30
0.0
 11
389207.0948941649
 21
199127.4098976022
 31
0.0
  0
LINE
  5
1A4
  8
MAKE2D$VISIBLE$LINES
 10
389207.0948941649
 20
199127.4098976022
 30
0.0
 11
389207.2387798948
 21
199127.4638187567
 31
0.0
  0
LINE
  5
1A5
  8
MAKE2D$VISIBLE$LINES
 10
389207.2387798948
 20
199127.4638187567
 30
0.0
 11
389207.3807408145
 21
199127.522620895
 31
0.0
  0
LINE
  5
1A6
  8
MAKE2D$VISIBLE$LINES
 10
389207.3807408145
 20
199127.522620895
 30
0.0
 11
389207.5206114038
 21
199127.5862354563
 31
0.0
  0
LINE
  5
1A7
  8
MAKE2D$VISIBLE$LINES
 10
389207.5206114038
 20
199127.5862354563
 30
0.0
 11
389207.65822858
 21
199127.654588269
 31
0.0
  0
LINE
  5
1A8
  8
MAKE2D$VISIBLE$LINES
 10
389207.65822858
 20
199127.654588269
 30
0.0
 11
389207.7934318875
 21
199127.7275996366
 31
0.0
  0
LINE
  5
1A9
  8
MAKE2D$VISIBLE$LINES
 10
389207.7934318875
 20
199127.7275996366
 30
0.0
 11
389207.9260636853
 21
199127.8051844313
 31
0.0
  0
LINE
  5
1AA
  8
MAKE2D$VISIBLE$LINES
 10
389207.9260636853
 20
199127.8051844313
 30
0.0
 11
389208.0559693308
 21
199127.8872521926
 31
0.0
  0
LINE
  5
1AB
  8
MAKE2D$VISIBLE$LINES
 10
389208.0559693308
 20
199127.8872521926
 30
0.0
 11
389208.1829973597
 21
199127.9737072332
 31
0.0
  0
LINE
  5
1AC
  8
MAKE2D$VISIBLE$LINES
 10
389208.1829973597
 20
199127.9737072332
 30
0.0
 11
389208.306999663
 21
199128.0644487504
 31
0.0
  0
LINE
  5
1AD
  8
MAKE2D$VISIBLE$LINES
 10
389208.306999663
 20
199128.0644487504
 30
0.0
 11
389208.4278316596
 21
199128.1593709436
 31
0.0
  0
LINE
  5
1AE
  8
MAKE2D$VISIBLE$LINES
 10
389208.4278316596
 20
199128.1593709436
 30
0.0
 11
389208.5453524648
 21
199128.2583631378
 31
0.0
  0
LINE
  5
1AF
  8
MAKE2D$VISIBLE$LINES
 10
389208.5453524648
 20
199128.2583631378
 30
0.0
 11
389208.6594250546
 21
199128.3613099125
 31
0.0
  0
LINE
  5
1B0
  8
MAKE2D$VISIBLE$LINES
 10
389208.6594250546
 20
199128.3613099125
 30
0.0
 11
389208.7699164255
 21
199128.4680912365
 31
0.0
  0
LINE
  5
1B1
  8
MAKE2D$VISIBLE$LINES
 10
389208.7699164255
 20
199128.4680912365
 30
0.0
 11
389208.8766977494
 21
199128.5785826073
 31
0.0
  0
LINE
  5
1B2
  8
MAKE2D$VISIBLE$LINES
 10
389208.8766977494
 20
199128.5785826073
 30
0.0
 11
389208.9796445241
 21
199128.6926551971
 31
0.0
  0
LINE
  5
1B3
  8
MAKE2D$VISIBLE$LINES
 10
389208.9796445241
 20
199128.6926551971
 30
0.0
 11
389209.0786367183
 21
199128.8101760023
 31
0.0
  0
LINE
  5
1B4
  8
MAKE2D$VISIBLE$LINES
 10
389209.0786367183
 20
199128.8101760023
 30
0.0
 11
389209.1735589115
 21
199128.9310079989
 31
0.0
  0
LINE
  5
1B5
  8
MAKE2D$VISIBLE$LINES
 10
389209.1735589115
 20
199128.9310079989
 30
0.0
 11
389209.2643004287
 21
199129.0550103023
 31
0.0
  0
LINE
  5
1B6
  8
MAKE2D$VISIBLE$LINES
 10
389209.2643004287
 20
199129.0550103023
 30
0.0
 11
389209.3507554693
 21
199129.1820383311
 31
0.0
  0
LINE
  5
1B7
  8
MAKE2D$VISIBLE$LINES
 10
389209.3507554693
 20
199129.1820383311
 30
0.0
 11
389209.4328232306
 21
199129.3119439766
 31
0.0
  0
LINE
  5
1B8
  8
MAKE2D$VISIBLE$LINES
 10
389209.4328232306
 20
199129.3119439766
 30
0.0
 11
389209.5104080253
 21
199129.4445757745
 31
0.0
  0
LINE
  5
1B9
  8
MAKE2D$VISIBLE$LINES
 10
389209.5104080253
 20
199129.4445757745
 30
0.0
 11
389209.5834193929
 21
199129.579779082
 31
0.0
  0
LINE
  5
1BA
  8
MAKE2D$VISIBLE$LINES
 10
389209.5834193929
 20
199129.579779082
 30
0.0
 11
389209.6517722056
 21
199129.7173962582
 31
0.0
  0
LINE
  5
1BB
  8
MAKE2D$VISIBLE$LINES
 10
389209.6517722056
 20
199129.7173962582
 30
0.0
 11
389209.7153867669
 21
199129.8572668475
 31
0.0
  0
LINE
  5
1BC
  8
MAKE2D$VISIBLE$LINES
 10
389209.7153867669
 20
199129.8572668475
 30
0.0
 11
389209.7741889051
 21
199129.9992277671
 31
0.0
  0
LINE
  5
1BD
  8
MAKE2D$VISIBLE$LINES
 10
389209.7741889051
 20
199129.9992277671
 30
0.0
 11
389209.8281100597
 21
199130.143113497
 31
0.0
  0
LINE
  5
1BE
  8
MAKE2D$VISIBLE$LINES
 10
389209.8281100597
 20
199130.143113497
 30
0.0
 11
389209.8770873608
 21
199130.2887562728
 31
0.0
  0
LINE
  5
1BF
  8
MAKE2D$VISIBLE$LINES
 10
389209.8770873608
 20
199130.2887562728
 30
0.0
 11
389209.9210637032
 21
199130.4359862816
 31
0.0
  0
LINE
  5
1C0
  8
MAKE2D$VISIBLE$LINES
 10
389209.9210637032
 20
199130.4359862816
 30
0.0
 11
389209.9599878124
 21
199130.5846318597
 31
0.0
  0
LINE
  5
1C1
  8
MAKE2D$VISIBLE$LINES
 10
389209.9599878124
 20
199130.5846318597
 30
0.0
 11
389209.9938143046
 21
199130.7345196931
 31
0.0
  0
LINE
  5
1C2
  8
MAKE2D$VISIBLE$LINES
 10
389209.9938143046
 20
199130.7345196931
 30
0.0
 11
389210.0225037398
 21
199130.8854750192
 31
0.0
  0
LINE
  5
1C3
  8
MAKE2D$VISIBLE$LINES
 10
389210.0225037398
 20
199130.8854750192
 30
0.0
 11
389210.0460226673
 21
199131.0373218309
 31
0.0
  0
LINE
  5
1C4
  8
MAKE2D$VISIBLE$LINES
 10
389210.0460226673
 20
199131.0373218309
 30
0.0
 11
389210.064343665
 21
199131.1898830816
 31
0.0
  0
LINE
  5
1C5
  8
MAKE2D$VISIBLE$LINES
 10
389210.064343665
 20
199131.1898830816
 30
0.0
 11
389210.0774453714
 21
199131.3429808916
 31
0.0
  0
LINE
  5
1C6
  8
MAKE2D$VISIBLE$LINES
 10
389210.0774453714
 20
199131.3429808916
 30
0.0
 11
389210.0853125107
 21
199131.496436756
 31
0.0
  0
LINE
  5
1C7
  8
MAKE2D$VISIBLE$LINES
 10
389210.0853125107
 20
199131.496436756
 30
0.0
 11
389210.0879359101
 21
199131.6500717518
 31
0.0
  0
LINE
  5
1C8
  8
MAKE2D$VISIBLE$LINES
 10
389210.0879359101
 20
199131.6500717518
 30
0.0
 11
389210.0879359102
 21
199222.6500717518
 31
0.0
  0
LINE
  5
1C9
  8
MAKE2D$VISIBLE$LINES
 10
389210.0879359102
 20
199222.6500717518
 30
0.0
 11
389210.0853125108
 21
199222.8037067476
 31
0.0
  0
LINE
  5
1CA
  8
MAKE2D$VISIBLE$LINES
 10
389210.0853125108
 20
199222.8037067476
 30
0.0
 11
389210.0774453715
 21
199222.9571626119
 31
0.0
  0
LINE
  5
1CB
  8
MAKE2D$VISIBLE$LINES
 10
389210.0774453715
 20
199222.9571626119
 30
0.0
 11
389210.064343665
 21
199223.1102604221
 31
0.0
  0
LINE
  5
1CC
  8
MAKE2D$VISIBLE$LINES
 10
389210.064343665
 20
199223.1102604221
 30
0.0
 11
389210.0460226673
 21
199223.2628216727
 31
0.0
  0
LINE
  5
1CD
  8
MAKE2D$VISIBLE$LINES
 10
389210.0460226673
 20
199223.2628216727
 30
0.0
 11
389210.0225037399
 21
199223.4146684844
 31
0.0
  0
LINE
  5
1CE
  8
MAKE2D$VISIBLE$LINES
 10
389210.0225037399
 20
199223.4146684844
 30
0.0
 11
389209.9938143047
 21
199223.5656238105
 31
0.0
  0
LINE
  5
1CF
  8
MAKE2D$VISIBLE$LINES
 10
389209.9938143047
 20
199223.5656238105
 30
0.0
 11
389209.9599878124
 21
199223.7155116439
 31
0.0
  0
LINE
  5
1D0
  8
MAKE2D$VISIBLE$LINES
 10
389209.9599878124
 20
199223.7155116439
 30
0.0
 11
389209.9210637032
 21
199223.864157222
 31
0.0
  0
LINE
  5
1D1
  8
MAKE2D$VISIBLE$LINES
 10
389209.9210637032
 20
199223.864157222
 30
0.0
 11
389209.8770873608
 21
199224.0113872308
 31
0.0
  0
LINE
  5
1D2
  8
MAKE2D$VISIBLE$LINES
 10
389209.8770873608
 20
199224.0113872308
 30
0.0
 11
389209.8281100597
 21
199224.1570300066
 31
0.0
  0
LINE
  5
1D3
  8
MAKE2D$VISIBLE$LINES
 10
389209.8281100597
 20
199224.1570300066
 30
0.0
 11
389209.7741889051
 21
199224.3009157365
 31
0.0
  0
LINE
  5
1D4
  8
MAKE2D$VISIBLE$LINES
 10
389209.7741889051
 20
199224.3009157365
 30
0.0
 11
389209.7153867669
 21
199224.4428766561
 31
0.0
  0
LINE
  5
1D5
  8
MAKE2D$VISIBLE$LINES
 10
389209.7153867669
 20
199224.4428766561
 30
0.0
 11
389209.6517722056
 21
199224.5827472455
 31
0.0
  0
LINE
  5
1D6
  8
MAKE2D$VISIBLE$LINES
 10
389209.6517722056
 20
199224.5827472455
 30
0.0
 11
389209.5834193929
 21
199224.7203644216
 31
0.0
  0
LINE
  5
1D7
  8
MAKE2D$VISIBLE$LINES
 10
389209.5834193929
 20
199224.7203644216
 30
0.0
 11
389209.5104080253
 21
199224.8555677291
 31
0.0
  0
LINE
  5
1D8
  8
MAKE2D$VISIBLE$LINES
 10
389209.5104080253
 20
199224.8555677291
 30
0.0
 11
389209.4328232306
 21
199224.988199527
 31
0.0
  0
LINE
  5
1D9
  8
MAKE2D$VISIBLE$LINES
 10
389209.4328232306
 20
199224.988199527
 30
0.0
 11
389209.3507554693
 21
199225.1181051725
 31
0.0
  0
LINE
  5
1DA
  8
MAKE2D$VISIBLE$LINES
 10
389209.3507554693
 20
199225.1181051725
 30
0.0
 11
389209.2643004287
 21
199225.2451332014
 31
0.0
  0
LINE
  5
1DB
  8
MAKE2D$VISIBLE$LINES
 10
389209.2643004287
 20
199225.2451332014
 30
0.0
 11
389209.1735589115
 21
199225.3691355047
 31
0.0
  0
LINE
  5
1DC
  8
MAKE2D$VISIBLE$LINES
 10
389209.1735589115
 20
199225.3691355047
 30
0.0
 11
389209.0786367183
 21
199225.4899675013
 31
0.0
  0
LINE
  5
1DD
  8
MAKE2D$VISIBLE$LINES
 10
389209.0786367183
 20
199225.4899675013
 30
0.0
 11
389208.9796445241
 21
199225.6074883065
 31
0.0
  0
LINE
  5
1DE
  8
MAKE2D$VISIBLE$LINES
 10
389208.9796445241
 20
199225.6074883065
 30
0.0
 11
389208.8766977494
 21
199225.7215608963
 31
0.0
  0
LINE
  5
1DF
  8
MAKE2D$VISIBLE$LINES
 10
389208.8766977494
 20
199225.7215608963
 30
0.0
 11
389208.7699164255
 21
199225.8320522672
 31
0.0
  0
LINE
  5
1E0
  8
MAKE2D$VISIBLE$LINES
 10
389208.7699164255
 20
199225.8320522672
 30
0.0
 11
389208.6594250546
 21
199225.9388335911
 31
0.0
  0
LINE
  5
1E1
  8
MAKE2D$VISIBLE$LINES
 10
389208.6594250546
 20
199225.9388335911
 30
0.0
 11
389208.5453524648
 21
199226.0417803658
 31
0.0
  0
LINE
  5
1E2
  8
MAKE2D$VISIBLE$LINES
 10
389208.5453524648
 20
199226.0417803658
 30
0.0
 11
389208.4278316596
 21
199226.14077256
 31
0.0
  0
LINE
  5
1E3
  8
MAKE2D$VISIBLE$LINES
 10
389208.4278316596
 20
199226.14077256
 30
0.0
 11
389208.3069996629
 21
199226.2356947532
 31
0.0
  0
LINE
  5
1E4
  8
MAKE2D$VISIBLE$LINES
 10
389208.3069996629
 20
199226.2356947532
 30
0.0
 11
389208.1829973597
 21
199226.3264362704
 31
0.0
  0
LINE
  5
1E5
  8
MAKE2D$VISIBLE$LINES
 10
389208.1829973597
 20
199226.3264362704
 30
0.0
 11
389208.0559693308
 21
199226.412891311
 31
0.0
  0
LINE
  5
1E6
  8
MAKE2D$VISIBLE$LINES
 10
389208.0559693308
 20
199226.412891311
 30
0.0
 11
389207.9260636853
 21
199226.4949590723
 31
0.0
  0
LINE
  5
1E7
  8
MAKE2D$VISIBLE$LINES
 10
389207.9260636853
 20
199226.4949590723
 30
0.0
 11
389207.7934318874
 21
199226.572543867
 31
0.0
  0
LINE
  5
1E8
  8
MAKE2D$VISIBLE$LINES
 10
389207.7934318874
 20
199226.572543867
 30
0.0
 11
389207.6582285799
 21
199226.6455552347
 31
0.0
  0
LINE
  5
1E9
  8
MAKE2D$VISIBLE$LINES
 10
389207.6582285799
 20
199226.6455552347
 30
0.0
 11
389207.5206114037
 21
199226.7139080473
 31
0.0
  0
LINE
  5
1EA
  8
MAKE2D$VISIBLE$LINES
 10
389207.5206114037
 20
199226.7139080473
 30
0.0
 11
389207.3807408144
 21
199226.7775226086
 31
0.0
  0
LINE
  5
1EB
  8
MAKE2D$VISIBLE$LINES
 10
389207.3807408144
 20
199226.7775226086
 30
0.0
 11
389207.2387798948
 21
199226.8363247469
 31
0.0
  0
LINE
  5
1EC
  8
MAKE2D$VISIBLE$LINES
 10
389207.2387798948
 20
199226.8363247469
 30
0.0
 11
389207.0948941649
 21
199226.8902459014
 31
0.0
  0
LINE
  5
1ED
  8
MAKE2D$VISIBLE$LINES
 10
389207.0948941649
 20
199226.8902459014
 30
0.0
 11
389206.9492513891
 21
199226.9392232025
 31
0.0
  0
LINE
  5
1EE
  8
MAKE2D$VISIBLE$LINES
 10
389206.9492513891
 20
199226.9392232025
 30
0.0
 11
389206.8020213803
 21
199226.9831995449
 31
0.0
  0
LINE
  5
1EF
  8
MAKE2D$VISIBLE$LINES
 10
389206.8020213803
 20
199226.9831995449
 30
0.0
 11
389206.6533758022
 21
199227.0221236542
 31
0.0
  0
LINE
  5
1F0
  8
MAKE2D$VISIBLE$LINES
 10
389206.6533758022
 20
199227.0221236542
 30
0.0
 11
389206.5034879688
 21
199227.0559501465
 31
0.0
  0
LINE
  5
1F1
  8
MAKE2D$VISIBLE$LINES
 10
389206.5034879688
 20
199227.0559501465
 30
0.0
 11
389206.3525326427
 21
199227.0846395816
 31
0.0
  0
LINE
  5
1F2
  8
MAKE2D$VISIBLE$LINES
 10
389206.3525326427
 20
199227.0846395816
 30
0.0
 11
389206.200685831
 21
199227.108158509
 31
0.0
  0
LINE
  5
1F3
  8
MAKE2D$VISIBLE$LINES
 10
389206.200685831
 20
199227.108158509
 30
0.0
 11
389206.0481245804
 21
199227.1264795068
 31
0.0
  0
LINE
  5
1F4
  8
MAKE2D$VISIBLE$LINES
 10
389206.0481245804
 20
199227.1264795068
 30
0.0
 11
389205.8950267702
 21
199227.1395812132
 31
0.0
  0
LINE
  5
1F5
  8
MAKE2D$VISIBLE$LINES
 10
389205.8950267702
 20
199227.1395812132
 30
0.0
 11
389205.741570906
 21
199227.1474483525
 31
0.0
  0
LINE
  5
1F6
  8
MAKE2D$VISIBLE$LINES
 10
389205.741570906
 20
199227.1474483525
 30
0.0
 11
389205.5879359101
 21
199227.1500717519
 31
0.0
  0
ENDSEC
  0
EOF
